Tất cả 0..9 A B C D E F G H I J K L M N O P Q R S T U V W X Y Z
7 Seas
Lượt xem: 1953
                        Tuning:Standard
Intro
     D/F#                   G               D                D/F#
e|----------------|---------3--2h3p2--|--2----0-------|----------0-----------|
B|-------------3--|--0---3------------|-----------3---|--------------3-------|
G|--2-----2-------|-------------------|---------------|--2-------------------|
D|--0--0----------|-------------------|--0------------|--0---0---------------|
A|----------------|-------------------|---------------|----------------------|
E|--2-------------|--3----------------|---------------|--2-------------------|
       D/F#                G                         D
e|----------------|------------------3--2h3p2--|-----2-----------------------|
B|--------------3-|----------0---3-------------|----3------------------------|
G|--2-------2-----|--------2-------------------|---2-------------------------|
D|--0---0---------|------0---------------------|--0--------------------------|
A|----------------|----2-----------------------|-----------------------------|
E|--2-------------|--3-------------------------|-----------------------------|
      Am                                Em
e|-------------------0-----|-------------------0-----------------------------|
B|--1----1---------------1-|--0----0---------------0-------------------------|
G|---------------2---------|---------------0---------------------------------|
D|-----------2-------------|-----------2-------------------------------------|
A|--0----0-----------------|-------------------------------------------------|
E|-------------------------|--0----0-----------------------------------------|
       Am                               Em
e|-------------------0-----|-------------------0-----------------------------|
B|--1----1---------------1-|--0----0---------------0-------------------------|
G|---------------2---------|---------------0---------------------------------|
D|-----------2-------------|-----------2-------------------------------------|
A|--0----0-----------------|-------------------------------------------------|
E|-------------------------|--0----0-----------------------------------------|
      Am                              Em
e|-------------------0-----|-------------------0-----------------------------|
B|--1----1---------------1-|--0----0---------------0-------------------------|
G|---------------2---------|---------------0---------------------------------|
D|-----------2-------------|-----------2-------------------------------------|
A|--0----0-----------------|-------------------------------------------------|
E|-------------------------|--0----0-----------------------------------------|
     D/F#            G              D              D/F#
e|------------|----------------|--2---------|-----------0--------------------|
B|------------|-----------0----|-----3------|---------------0----------------|
G|--2---------|---------2------|--------2---|--2-----------------------------|
D|--0---------|-------0--------|--0---------|--0---0-------------------------|
A|------------|-----2----------|------------|--------------------------------|
E|--2---------|--3-------------|------------|--2-----------------------------|
       C             D|               E                    C
e|--0---------|--------------|--------------0------|--0------------------------|
B|------1-----|------3-------|--0----0----------0--|------1--------------------|
G|----------0-|--2-------2---|---------------------|----------0----------------|
D|------------|--0-----------|---------------------|---------------------------|
A|--3---------|--------------|---------------------|--3------------------------|
E|------------|--2-----------|--0----0-------------|---------------------------|
       D|          G-D/F#-Em
e|--------------|-------------0------------------------------------------------|
B|------3-------|--0--------------0--------------------------------------------|
G|--2-------2---|-----2--0-----------------------------------------------------|
D|--0-----------|--------------------------------------------------------------|
A|--------------|--------------------------------------------------------------|
E|--2-----------|--3--2--0-----------------------------------------------------|
      C            D/F#           Em                     C
e|--0---------|--------------|--------------0------|--0------------------------|
B|------1-----|------3-------|--0----0----------0--|------1--------------------|
G|----------0-|--2-------2---|---------------------|----------0----------------|
D|------------|--0-----------|---------------------|---------------------------|
A|--3---------|--------------|---------------------|--3------------------------|
E|------------|--2-----------|--0----0-------------|---------------------------|
        D/F#                     Em
e|-----------0----------|-----------------0----------------------------------|
B|---------------3------|--------------0-------------------------------------|
G|--2-------------------|-----------0----------------------------------------|
D|--0---0---------------|--------2-------------------------------------------|
A|----------------------|-----2----------------------------------------------|
E|--2-------------------|--0-------------------------------------------------|
Bridge: Am,D/F#,G,C,Am/F#,B7,Em-D/F#-E/G#,Am,D/F#,G,C,Am/F#,B7,Em