Tất cả 0..9 A B C D E F G H I J K L M N O P Q R S T U V W X Y Z
Spaceman Live
Lượt xem: 1641
                        This Is The Guide To Play It Right Live.

(Advanced)

e|-----------------------------15---15---15----|
e|------------------------------15---15---15---|
e|-------------------------------15---15---15--|
D|---------------------------------------------|
A|---------------------------------------------|
E|---------------------------------------------|

can be played like this. (simple version)

e|-----------------------------15---15---15----|
e|-----------------------------15---15---15----|
e|-----------------------------15---15---15----|
D|---------------------------------------------|
A|---------------------------------------------|
E|---------------------------------------------|

In Order to make the real Jas performance. It would be wise of you to try to distroy a 
with the head of your very very ugly guitar.

Now comes the triggy part, try to hit the microphone of while playing the main riff.

Then try to pick it up so the ordience doesn't notice.. (Only works if its playback.)