Tất cả 0..9 A B C D E F G H I J K L M N O P Q R S T U V W X Y Z
Geek in the pink
Lượt xem: 1957
                        
Tuning: standard

*This song is so much fun to play once you get the hang of it! It's also my first
tab, so I'm really sorry if it's off!*

Into/verse
"Let the geek in the pink take a stab at it..."
e|---6----2----6----4----4--------------|
B|---6----2----7----4----4--------------|
G|---6----3----8----6----5--------------|
D|---6----4----8----6----6--------------|
A|---x----4----6----4----6--------------|
E|---6----2----6----4----4--------------|

Chorus (1x & 2x)  
"I don't care what she's..."
e|---6----2----6----1-------------------|
B|---6----2----7----1-------------------|
G|---6----3----8----2-------------------|
D|---6----4----8----3-------------------|
A|---x----4----6----3-------------------|
E|---6----2----6----1-------------------|

"I could be the one to take her home..."
e|---6----2----6----4----4--------------|
B|---6----2----7----4----4--------------|
G|---6----3----8----6----5--------------|
D|---6----4----8----6----6--------------|
A|---x----4----6----4----6--------------|
E|---6----2----6----4----4--------------|

"I could be the one to..."
e|---6----2----6----4----4--------------|
B|---6----2----7----4----4--------------|
G|---6----3----8----6----5--------------|
D|---6----4----8----6----6--------------|
A|---x----4----6----4----6--------------|
E|---6----2----6----4----4--------------|

Repeat intro/verse and chorus

Bridge
"Hey baby look at me go..."
e|---2----6----1------------------------|
B|---2----6----1------------6-----------|
G|---3----6----2----------6---6---------|
D|---4----6----3--------8-------8-------|
A|---4----x----3------8-----------8-----|
E|---2----6----1----6-------------------|

e|---2----6----1------------------------|
B|---2----6----1------------------------|
G|---3----6----2------------------------|
D|---4----6----3------------------------|
A|---4----x----3------------------------|
E|---2----6----1------------------------|

Repeat verse

Chorus (3x)
"I don't care what she's..."
e|---2----6----6----1-------------------|
B|---2----6----5----1-------------------|
G|---3----6----7----2-------------------|
D|---4----6----7----3-------------------|
A|---4----x----6----3-------------------|
E|---2----6----6----1-------------------|

"I could be the one to..."
e|---6----2----6----4----4--------------|
B|---6----2----5----4----4--------------|
G|---6----3----7----6----5--------------|
D|---6----4----7----6----6--------------|
A|---x----4----6----4----6--------------|
E|---6----2----6----4----4--------------|

"I could be the talk..."
e|---6----2----6----4----4--------------|
B|---6----2----5----4----4--------------|
G|---6----3----7----6----5--------------|
D|---6----4----7----6----6--------------|
A|---x----4----6----4----6--------------|
E|---6----2----6----4----4--------------|